ISO-10303-21;
HEADER;
FILE_DESCRIPTION (( 'STEP AP203' ),
    '1' );
FILE_NAME ('QB-CTZHWP-50.8-894-M.STEP',
    '2020-12-24T01:38:47',
    ( '' ),
    ( '' ),
    'SwSTEP 2.0',
    'SolidWorks 2020',
    '' );
FILE_SCHEMA (( 'CONFIG_CONTROL_DESIGN' ));
ENDSEC;

DATA;
#1 = CIRCLE ( 'NONE', #84, 25.39999999999999858 ) ;
#2 = SHAPE_DEFINITION_REPRESENTATION ( #23, #70 ) ;
#3 = DIRECTION ( 'NONE',  ( -1.000000000000000000, -0.000000000000000000, -0.000000000000000000 ) ) ;
#4 = DATE_TIME_ROLE ( 'classification_date' ) ;
#5 = PLANE ( 'NONE',  #149 ) ;
#6 = ORIENTED_EDGE ( 'NONE', *, *, #94, .F. ) ;
#7 = APPLICATION_PROTOCOL_DEFINITION ( 'international standard', 'config_control_design', 1994, #48 ) ;
#8 = DIRECTION ( 'NONE',  ( -1.000000000000000000, -0.000000000000000000, -0.000000000000000000 ) ) ;
#9 = CYLINDRICAL_SURFACE ( 'NONE', #162, 25.39999999999999858 ) ;
#10 = PERSON ( 'UNSPECIFIED', 'UNSPECIFIED', 'UNSPECIFIED', ('UNSPECIFIED'), ('UNSPECIFIED'), ('UNSPECIFIED') ) ;
#11 = DIRECTION ( 'NONE',  ( 0.000000000000000000, 0.000000000000000000, 1.000000000000000000 ) ) ;
#12 = CC_DESIGN_APPROVAL ( #150, ( #170 ) ) ;
#13 = PERSON_AND_ORGANIZATION ( #10, #146 ) ;
#14 = CIRCLE ( 'NONE', #45, 25.39999999999999858 ) ;
#15 = CARTESIAN_POINT ( 'NONE',  ( 3.000000000000001332, 25.39999999999999858, 0.000000000000000000 ) ) ;
#16 = ORIENTED_EDGE ( 'NONE', *, *, #64, .T. ) ;
#17 = PERSON_AND_ORGANIZATION_ROLE ( 'design_owner' ) ;
#18 = EDGE_LOOP ( 'NONE', ( #142, #132 ) ) ;
#19 = DIRECTION ( 'NONE',  ( 1.000000000000000000, 0.000000000000000000, 0.000000000000000000 ) ) ;
#20 = ORIENTED_EDGE ( 'NONE', *, *, #94, .T. ) ;
#21 = COORDINATED_UNIVERSAL_TIME_OFFSET ( 8, 0, .AHEAD. ) ;
#22 = LOCAL_TIME ( 9, 38, 47.00000000000000000, #69 ) ;
#23 = PRODUCT_DEFINITION_SHAPE ( 'NONE', 'NONE',  #77 ) ;
#24 = AXIS2_PLACEMENT_3D ( 'NONE', #152, #166, #52 ) ;
#25 = PERSON_AND_ORGANIZATION ( #10, #146 ) ;
#26 = CALENDAR_DATE ( 2020, 24, 12 ) ;
#27 = CC_DESIGN_DATE_AND_TIME_ASSIGNMENT ( #28, #4, ( #136 ) ) ;
#28 = DATE_AND_TIME ( #26, #22 ) ;
#29 = PERSON_AND_ORGANIZATION_ROLE ( 'creator' ) ;
#30 = CC_DESIGN_APPROVAL ( #46, ( #77 ) ) ;
#31 = CALENDAR_DATE ( 2020, 24, 12 ) ;
#32 = ORIENTED_EDGE ( 'NONE', *, *, #175, .F. ) ;
#33 = CARTESIAN_POINT ( 'NONE',  ( 0.000000000000000000, 0.000000000000000000, 0.000000000000000000 ) ) ;
#34 = DIRECTION ( 'NONE',  ( 0.000000000000000000, 0.000000000000000000, 1.000000000000000000 ) ) ;
#35 = VECTOR ( 'NONE', #130, 1000.000000000000000 ) ;
#36 = ORIENTED_EDGE ( 'NONE', *, *, #92, .F. ) ;
#37 = APPLICATION_PROTOCOL_DEFINITION ( 'international standard', 'config_control_design', 1994, #148 ) ;
#38 = LOCAL_TIME ( 9, 38, 47.00000000000000000, #154 ) ;
#39 = CC_DESIGN_PERSON_AND_ORGANIZATION_ASSIGNMENT ( #13, #127, ( #136 ) ) ;
#40 = DIRECTION ( 'NONE',  ( -1.000000000000000000, -0.000000000000000000, -0.000000000000000000 ) ) ;
#41 = DIRECTION ( 'NONE',  ( 1.000000000000000000, 0.000000000000000000, 0.000000000000000000 ) ) ;
#42 = LINE ( 'NONE', #157, #35 ) ;
#43 = PERSON_AND_ORGANIZATION ( #10, #146 ) ;
#44 = VERTEX_POINT ( 'NONE', #140 ) ;
#45 = AXIS2_PLACEMENT_3D ( 'NONE', #133, #8, #34 ) ;
#46 = APPROVAL ( #73, 'UNSPECIFIED' ) ;
#47 = ADVANCED_FACE ( 'NONE', ( #160 ), #5, .F. ) ;
#48 = APPLICATION_CONTEXT ( 'configuration controlled 3d designs of mechanical parts and assemblies' ) ;
#49 = AXIS2_PLACEMENT_3D ( 'NONE', #125, #159, #131 ) ;
#50 = CARTESIAN_POINT ( 'NONE',  ( -3.000000000000001332, 25.39999999999999858, 0.000000000000000000 ) ) ;
#51 = CALENDAR_DATE ( 2020, 24, 12 ) ;
#52 = DIRECTION ( 'NONE',  ( 0.000000000000000000, 0.000000000000000000, 1.000000000000000000 ) ) ;
#53 = DATE_AND_TIME ( #151, #56 ) ;
#54 = APPROVAL_DATE_TIME ( #173, #46 ) ;
#55 = FACE_OUTER_BOUND ( 'NONE', #174, .T. ) ;
#56 = LOCAL_TIME ( 9, 38, 47.00000000000000000, #97 ) ;
#57 = FACE_OUTER_BOUND ( 'NONE', #18, .T. ) ;
#58 = DESIGN_CONTEXT ( 'detailed design', #148, 'design' ) ;
#59 = VERTEX_POINT ( 'NONE', #144 ) ;
#60 = MANIFOLD_SOLID_BREP ( 'Ðý×', #93 ) ;
#61 = ADVANCED_FACE ( 'NONE', ( #55 ), #9, .T. ) ;
#62 = CC_DESIGN_PERSON_AND_ORGANIZATION_ASSIGNMENT ( #43, #113, ( #77 ) ) ;
#63 =( GEOMETRIC_REPRESENTATION_CONTEXT ( 3 ) GLOBAL_UNCERTAINTY_ASSIGNED_CONTEXT ( ( #78 ) ) GLOBAL_UNIT_ASSIGNED_CONTEXT ( ( #158, #115, #86 ) ) REPRESENTATION_CONTEXT ( 'NONE', 'WORKASPACE' ) );
#64 = EDGE_CURVE ( 'NONE', #143, #59, #42, .T. ) ;
#65 = CARTESIAN_POINT ( 'NONE',  ( -3.000000000000002665, 0.000000000000000000, 0.000000000000000000 ) ) ;
#66 = PERSON_AND_ORGANIZATION_ROLE ( 'design_supplier' ) ;
#67 = AXIS2_PLACEMENT_3D ( 'NONE', #65, #40, #81 ) ;
#68 = LINE ( 'NONE', #128, #76 ) ;
#69 = COORDINATED_UNIVERSAL_TIME_OFFSET ( 8, 0, .AHEAD. ) ;
#70 = ADVANCED_BREP_SHAPE_REPRESENTATION ( 'QB-CTZHWP-50.8-894-M', ( #60, #91 ), #63 ) ;
#71 = APPROVAL_ROLE ( '' ) ;
#72 = EDGE_LOOP ( 'NONE', ( #75, #102, #119, #74 ) ) ;
#73 = APPROVAL_STATUS ( 'not_yet_approved' ) ;
#74 = ORIENTED_EDGE ( 'NONE', *, *, #122, .F. ) ;
#75 = ORIENTED_EDGE ( 'NONE', *, *, #64, .F. ) ;
#76 = VECTOR ( 'NONE', #3, 1000.000000000000000 ) ;
#77 = PRODUCT_DEFINITION ( 'UNKNOWN', '', #170, #58 ) ;
#78 = UNCERTAINTY_MEASURE_WITH_UNIT (LENGTH_MEASURE( 1.000000000000000082E-05 ), #158, 'distance_accuracy_value', 'NONE');
#79 = APPROVAL_STATUS ( 'not_yet_approved' ) ;
#80 = ADVANCED_FACE ( 'NONE', ( #57 ), #138, .F. ) ;
#81 = DIRECTION ( 'NONE',  ( 0.000000000000000000, 0.000000000000000000, 1.000000000000000000 ) ) ;
#82 = APPROVAL_ROLE ( '' ) ;
#83 = CC_DESIGN_SECURITY_CLASSIFICATION ( #136, ( #170 ) ) ;
#84 = AXIS2_PLACEMENT_3D ( 'NONE', #112, #99, #11 ) ;
#85 = CC_DESIGN_PERSON_AND_ORGANIZATION_ASSIGNMENT ( #153, #66, ( #170 ) ) ;
#86 =( NAMED_UNIT ( * ) SI_UNIT ( $, .STERADIAN. ) SOLID_ANGLE_UNIT ( ) );
#87 = MECHANICAL_CONTEXT ( 'NONE', #48, 'mechanical' ) ;
#88 = APPROVAL_STATUS ( 'not_yet_approved' ) ;
#89 = DIRECTION ( 'NONE',  ( -1.000000000000000000, 0.000000000000000000, -0.000000000000000000 ) ) ;
#90 = PERSON_AND_ORGANIZATION ( #10, #146 ) ;
#91 = AXIS2_PLACEMENT_3D ( 'NONE', #33, #172, #19 ) ;
#92 = EDGE_CURVE ( 'NONE', #129, #44, #68, .T. ) ;
#93 = CLOSED_SHELL ( 'NONE', ( #61, #135, #47, #80 ) ) ;
#94 = EDGE_CURVE ( 'NONE', #129, #143, #1, .T. ) ;
#95 = APPROVAL_DATE_TIME ( #165, #150 ) ;
#96 = PRODUCT_RELATED_PRODUCT_CATEGORY ( 'detail', '', ( #108 ) ) ;
#97 = COORDINATED_UNIVERSAL_TIME_OFFSET ( 8, 0, .AHEAD. ) ;
#98 = CYLINDRICAL_SURFACE ( 'NONE', #49, 25.39999999999999858 ) ;
#99 = DIRECTION ( 'NONE',  ( -1.000000000000000000, -0.000000000000000000, -0.000000000000000000 ) ) ;
#100 = CALENDAR_DATE ( 2020, 24, 12 ) ;
#101 = APPROVAL_PERSON_ORGANIZATION ( #141, #150, #71 ) ;
#102 = ORIENTED_EDGE ( 'NONE', *, *, #105, .T. ) ;
#103 = CARTESIAN_POINT ( 'NONE',  ( 3.000000000000002665, 3.110602869834276865E-15, -25.39999999999999858 ) ) ;
#104 = COORDINATED_UNIVERSAL_TIME_OFFSET ( 8, 0, .AHEAD. ) ;
#105 = EDGE_CURVE ( 'NONE', #143, #129, #106, .T. ) ;
#106 = CIRCLE ( 'NONE', #24, 25.39999999999999858 ) ;
#107 = ORIENTED_EDGE ( 'NONE', *, *, #105, .F. ) ;
#108 = PRODUCT ( 'QB-CTZHWP-50.8-894-M', 'QB-CTZHWP-50.8-894-M', '', ( #87 ) ) ;
#109 = PERSON_AND_ORGANIZATION ( #10, #146 ) ;
#110 = SECURITY_CLASSIFICATION_LEVEL ( 'unclassified' ) ;
#111 = CARTESIAN_POINT ( 'NONE',  ( 3.000000000000002665, 0.000000000000000000, 25.39999999999999858 ) ) ;
#112 = CARTESIAN_POINT ( 'NONE',  ( 3.000000000000002665, 0.000000000000000000, 0.000000000000000000 ) ) ;
#113 = PERSON_AND_ORGANIZATION_ROLE ( 'creator' ) ;
#114 = CARTESIAN_POINT ( 'NONE',  ( -3.000000000000000000, 0.000000000000000000, 0.000000000000000000 ) ) ;
#115 =( NAMED_UNIT ( * ) PLANE_ANGLE_UNIT ( ) SI_UNIT ( $, .RADIAN. ) );
#116 = LOCAL_TIME ( 9, 38, 47.00000000000000000, #21 ) ;
#117 = EDGE_LOOP ( 'NONE', ( #6, #107 ) ) ;
#118 = APPROVAL_ROLE ( '' ) ;
#119 = ORIENTED_EDGE ( 'NONE', *, *, #92, .T. ) ;
#120 = DIRECTION ( 'NONE',  ( -1.000000000000000000, -0.000000000000000000, -0.000000000000000000 ) ) ;
#121 = CC_DESIGN_PERSON_AND_ORGANIZATION_ASSIGNMENT ( #25, #29, ( #170 ) ) ;
#122 = EDGE_CURVE ( 'NONE', #59, #44, #126, .T. ) ;
#123 = APPROVAL_PERSON_ORGANIZATION ( #109, #124, #82 ) ;
#124 = APPROVAL ( #79, 'UNSPECIFIED' ) ;
#125 = CARTESIAN_POINT ( 'NONE',  ( -3.000000000000000000, 0.000000000000000000, 0.000000000000000000 ) ) ;
#126 = CIRCLE ( 'NONE', #67, 25.39999999999999858 ) ;
#127 = PERSON_AND_ORGANIZATION_ROLE ( 'classification_officer' ) ;
#128 = CARTESIAN_POINT ( 'NONE',  ( -3.000000000000000000, 0.000000000000000000, 25.39999999999999858 ) ) ;
#129 = VERTEX_POINT ( 'NONE', #111 ) ;
#130 = DIRECTION ( 'NONE',  ( -1.000000000000000000, -0.000000000000000000, -0.000000000000000000 ) ) ;
#131 = DIRECTION ( 'NONE',  ( 0.000000000000000000, 0.000000000000000000, 1.000000000000000000 ) ) ;
#132 = ORIENTED_EDGE ( 'NONE', *, *, #122, .T. ) ;
#133 = CARTESIAN_POINT ( 'NONE',  ( -3.000000000000002665, 0.000000000000000000, 0.000000000000000000 ) ) ;
#134 = DIRECTION ( 'NONE',  ( -0.000000000000000000, 0.000000000000000000, 1.000000000000000000 ) ) ;
#135 = ADVANCED_FACE ( 'NONE', ( #167 ), #98, .T. ) ;
#136 = SECURITY_CLASSIFICATION ( '', '', #110 ) ;
#137 = APPROVAL_DATE_TIME ( #53, #124 ) ;
#138 = PLANE ( 'NONE',  #139 ) ;
#139 = AXIS2_PLACEMENT_3D ( 'NONE', #50, #41, #168 ) ;
#140 = CARTESIAN_POINT ( 'NONE',  ( -3.000000000000002665, 0.000000000000000000, 25.39999999999999858 ) ) ;
#141 = PERSON_AND_ORGANIZATION ( #10, #146 ) ;
#142 = ORIENTED_EDGE ( 'NONE', *, *, #175, .T. ) ;
#143 = VERTEX_POINT ( 'NONE', #103 ) ;
#144 = CARTESIAN_POINT ( 'NONE',  ( -3.000000000000002665, 3.110602869834276865E-15, -25.39999999999999858 ) ) ;
#145 = CC_DESIGN_PERSON_AND_ORGANIZATION_ASSIGNMENT ( #161, #17, ( #108 ) ) ;
#146 = ORGANIZATION ( 'UNSPECIFIED', 'UNSPECIFIED', '' ) ;
#147 = CC_DESIGN_DATE_AND_TIME_ASSIGNMENT ( #169, #156, ( #77 ) ) ;
#148 = APPLICATION_CONTEXT ( 'configuration controlled 3d designs of mechanical parts and assemblies' ) ;
#149 = AXIS2_PLACEMENT_3D ( 'NONE', #15, #89, #134 ) ;
#150 = APPROVAL ( #88, 'UNSPECIFIED' ) ;
#151 = CALENDAR_DATE ( 2020, 24, 12 ) ;
#152 = CARTESIAN_POINT ( 'NONE',  ( 3.000000000000002665, 0.000000000000000000, 0.000000000000000000 ) ) ;
#153 = PERSON_AND_ORGANIZATION ( #10, #146 ) ;
#154 = COORDINATED_UNIVERSAL_TIME_OFFSET ( 8, 0, .AHEAD. ) ;
#155 = APPROVAL_PERSON_ORGANIZATION ( #90, #46, #118 ) ;
#156 = DATE_TIME_ROLE ( 'creation_date' ) ;
#157 = CARTESIAN_POINT ( 'NONE',  ( -3.000000000000000000, 3.110602869834276865E-15, -25.39999999999999858 ) ) ;
#158 =( LENGTH_UNIT ( ) NAMED_UNIT ( * ) SI_UNIT ( .MILLI., .METRE. ) );
#159 = DIRECTION ( 'NONE',  ( -1.000000000000000000, -0.000000000000000000, -0.000000000000000000 ) ) ;
#160 = FACE_OUTER_BOUND ( 'NONE', #117, .T. ) ;
#161 = PERSON_AND_ORGANIZATION ( #10, #146 ) ;
#162 = AXIS2_PLACEMENT_3D ( 'NONE', #114, #120, #171 ) ;
#163 = LOCAL_TIME ( 9, 38, 47.00000000000000000, #104 ) ;
#164 = CC_DESIGN_APPROVAL ( #124, ( #136 ) ) ;
#165 = DATE_AND_TIME ( #51, #38 ) ;
#166 = DIRECTION ( 'NONE',  ( -1.000000000000000000, -0.000000000000000000, -0.000000000000000000 ) ) ;
#167 = FACE_OUTER_BOUND ( 'NONE', #72, .T. ) ;
#168 = DIRECTION ( 'NONE',  ( 0.000000000000000000, 0.000000000000000000, -1.000000000000000000 ) ) ;
#169 = DATE_AND_TIME ( #31, #163 ) ;
#170 = PRODUCT_DEFINITION_FORMATION_WITH_SPECIFIED_SOURCE ( 'ANY', '', #108, .NOT_KNOWN. ) ;
#171 = DIRECTION ( 'NONE',  ( 0.000000000000000000, 0.000000000000000000, 1.000000000000000000 ) ) ;
#172 = DIRECTION ( 'NONE',  ( 0.000000000000000000, 0.000000000000000000, 1.000000000000000000 ) ) ;
#173 = DATE_AND_TIME ( #100, #116 ) ;
#174 = EDGE_LOOP ( 'NONE', ( #20, #16, #32, #36 ) ) ;
#175 = EDGE_CURVE ( 'NONE', #44, #59, #14, .T. ) ;
ENDSEC;
END-ISO-10303-21;
